  0
SECTION
  2
HEADER
  9
$ACADVER
  1
AC1009
  9
$INSBASE
 10
0.0
 20
0.0
 30
0.0
  9
$EXTMIN
 10
-1.40024213960472
 20
0.4717930703832753
 30
0.0
  9
$EXTMAX
 10
14.035956080622791
 20
15.80703014863227
 30
0.0
  9
$LIMMIN
 10
0.0
 20
0.0
  9
$LIMMAX
 10
12.0
 20
9.0
  9
$ORTHOMODE
 70
     1
  9
$REGENMODE
 70
     1
  9
$FILLMODE
 70
     1
  9
$QTEXTMODE
 70
     0
  9
$MIRRTEXT
 70
     1
  9
$DRAGMODE
 70
     2
  9
$LTSCALE
 40
0.6
  9
$OSMODE
 70
   111
  9
$ATTMODE
 70
     1
  9
$TEXTSIZE
 40
0.2
  9
$TRACEWID
 40
0.05
  9
$TEXTSTYLE
  7
ARIAL
  9
$CLAYER
  8
2-7
  9
$CELTYPE
  6
BYLAYER
  9
$CECOLOR
 62
   256
  9
$DIMSCALE
 40
1.0
  9
$DIMASZ
 40
0.125
  9
$DIMEXO
 40
0.0625
  9
$DIMDLI
 40
0.25
  9
$DIMRND
 40
0.0
  9
$DIMDLE
 40
0.0
  9
$DIMEXE
 40
0.125
  9
$DIMTP
 40
0.0
  9
$DIMTM
 40
0.0
  9
$DIMTXT
 40
0.125
  9
$DIMCEN
 40
0.09
  9
$DIMTSZ
 40
0.0
  9
$DIMTOL
 70
     0
  9
$DIMLIM
 70
     0
  9
$DIMTIH
 70
     1
  9
$DIMTOH
 70
     1
  9
$DIMSE1
 70
     0
  9
$DIMSE2
 70
     0
  9
$DIMTAD
 70
     0
  9
$DIMZIN
 70
     4
  9
$DIMBLK
  1

  9
$DIMASO
 70
     1
  9
$DIMSHO
 70
     1
  9
$DIMPOST
  1

  9
$DIMAPOST
  1

  9
$DIMALT
 70
     0
  9
$DIMALTD
 70
     2
  9
$DIMALTF
 40
25.399999999999999
  9
$DIMLFAC
 40
1.0
  9
$DIMTOFL
 70
     0
  9
$DIMTVP
 40
0.0
  9
$DIMTIX
 70
     0
  9
$DIMSOXD
 70
     0
  9
$DIMSAH
 70
     0
  9
$DIMBLK1
  1

  9
$DIMBLK2
  1

  9
$DIMSTYLE
  2
FRAC
  9
$DIMCLRD
 70
   256
  9
$DIMCLRE
 70
   256
  9
$DIMCLRT
 70
   256
  9
$DIMTFAC
 40
1.0
  9
$DIMGAP
 40
0.09
  9
$LUNITS
 70
     2
  9
$LUPREC
 70
     4
  9
$SKETCHINC
 40
0.1
  9
$FILLETRAD
 40
0.5
  9
$AUNITS
 70
     0
  9
$AUPREC
 70
     0
  9
$MENU
  1
.
  9
$ELEVATION
 40
0.0
  9
$PELEVATION
 40
0.0
  9
$THICKNESS
 40
0.0
  9
$LIMCHECK
 70
     0
  9
$BLIPMODE
 70
     0
  9
$CHAMFERA
 40
0.0
  9
$CHAMFERB
 40
0.0
  9
$SKPOLY
 70
     0
  9
$TDCREATE
 40
2452392.3517971062
  9
$TDUPDATE
 40
2452554.4582495359
  9
$TDINDWG
 40
0.2052740741
  9
$TDUSRTIMER
 40
0.2052715278
  9
$USRTIMER
 70
     1
  9
$ANGBASE
 50
0.0
  9
$ANGDIR
 70
     0
  9
$PDMODE
 70
     3
  9
$PDSIZE
 40
0.0
  9
$PLINEWID
 40
0.0
  9
$COORDS
 70
     2
  9
$SPLFRAME
 70
     0
  9
$SPLINETYPE
 70
     6
  9
$SPLINESEGS
 70
     8
  9
$ATTDIA
 70
     0
  9
$ATTREQ
 70
     1
  9
$HANDLING
 70
  4097
  9
$HANDSEED
  5
AAA
  9
$SURFTAB1
 70
     6
  9
$SURFTAB2
 70
     6
  9
$SURFTYPE
 70
     6
  9
$SURFU
 70
     6
  9
$SURFV
 70
     6
  9
$UCSNAME
  2

  9
$UCSORG
 10
0.0
 20
0.0
 30
0.0
  9
$UCSXDIR
 10
1.0
 20
0.0
 30
0.0
  9
$UCSYDIR
 10
0.0
 20
1.0
 30
0.0
  9
$PUCSNAME
  2

  9
$PUCSORG
 10
0.0
 20
0.0
 30
0.0
  9
$PUCSXDIR
 10
1.0
 20
0.0
 30
0.0
  9
$PUCSYDIR
 10
0.0
 20
1.0
 30
0.0
  9
$USERI1
 70
     0
  9
$USERI2
 70
     0
  9
$USERI3
 70
     0
  9
$USERI4
 70
     0
  9
$USERI5
 70
     0
  9
$USERR1
 40
62.0
  9
$USERR2
 40
25.399999999999999
  9
$USERR3
 40
0.0
  9
$USERR4
 40
0.0
  9
$USERR5
 40
0.0
  9
$WORLDVIEW
 70
     1
  9
$SHADEDGE
 70
     3
  9
$SHADEDIF
 70
    70
  9
$TILEMODE
 70
     1
  9
$MAXACTVP
 70
    48
  9
$PLIMCHECK
 70
     0
  9
$PEXTMIN
 10
1.0000000000000000E+020
 20
1.0000000000000000E+020
 30
1.0000000000000000E+020
  9
$PEXTMAX
 10
-1.0000000000000000E+020
 20
-1.0000000000000000E+020
 30
-1.0000000000000000E+020
  9
$PLIMMIN
 10
0.0
 20
0.0
  9
$PLIMMAX
 10
12.0
 20
9.0
  9
$UNITMODE
 70
     0
  9
$VISRETAIN
 70
     1
  9
$PLINEGEN
 70
     0
  9
$PSLTSCALE
 70
     1
  0
ENDSEC
  0
SECTION
  2
TABLES
  0
TABLE
  2
VPORT
 70
     2
  0
VPORT
  2
*ACTIVE
 70
     0
 10
0.0
 20
0.0
 11
1.0
 21
1.0
 12
6.3182579697450256
 22
8.1388334007040726
 13
0.0
 23
0.0
 14
0.5
 24
0.5
 15
0.5
 25
0.5
 16
0.0
 26
0.0
 36
1.0
 17
0.0
 27
0.0
 37
0.0
 40
15.751190824757421
 41
1.3665594855305461
 42
50.0
 43
0.0
 44
0.0
 50
0.0
 51
0.0
 71
     0
 72
   100
 73
     1
 74
     2
 75
     0
 76
     0
 77
     0
 78
     0
  0
ENDTAB
  0
TABLE
  2
LTYPE
 70
     3
  0
LTYPE
  2
CONTINUOUS
 70
     0
  3
Solid line
 72
    65
 73
     0
 40
0.0
  0
LTYPE
  2
CENTER
 70
     0
  3
Center ____ _ ____ _ ____ _ ____ _ ____ _ ____
 72
    65
 73
     4
 40
2.0
 49
1.25
 49
-0.25
 49
0.25
 49
-0.25
  0
LTYPE
  2
HIDDEN
 70
     0
  3
Hidden __ __ __ __ __ __ __ __ __ __ __ __ __ _
 72
    65
 73
     2
 40
0.375
 49
0.25
 49
-0.125
  0
ENDTAB
  0
TABLE
  2
LAYER
 70
     5
  0
LAYER
  2
0
 70
     0
 62
     7
  6
CONTINUOUS
  0
LAYER
  2
CENTERLINE
 70
     0
 62
     1
  6
CENTER
  0
LAYER
  2
2-7
 70
     0
 62
     2
  6
CONTINUOUS
  0
LAYER
  2
ADAPTER
 70
     0
 62
     3
  6
CONTINUOUS
  0
LAYER
  2
DRIVE_TANG
 70
     0
 62
     4
  6
CONTINUOUS
  0
ENDTAB
  0
TABLE
  2
STYLE
 70
     2
  0
STYLE
  2
STANDARD
 70
     0
 40
0.0
 41
1.0
 50
0.0
 71
     0
 42
0.2
  3
txt
  4

  0
STYLE
  2
ARIAL
 70
     0
 40
0.0
 41
1.0
 50
0.0
 71
     0
 42
0.2
  3
txt
  4

  0
ENDTAB
  0
TABLE
  2
VIEW
 70
     0
  0
ENDTAB
  0
TABLE
  2
UCS
 70
     0
  0
ENDTAB
  0
TABLE
  2
APPID
 70
     1
  0
APPID
  2
ACAD
 70
     0
  0
ENDTAB
  0
TABLE
  2
DIMSTYLE
 70
     1
  0
DIMSTYLE
  2
FRAC
 70
     0
  3

  4

  5

  6

  7

 40
1.0
 41
0.125
 42
0.0625
 43
0.25
 44
0.125
 45
0.0
 46
0.0
 47
0.0
 48
0.0
140
0.125
141
0.09
142
0.0
143
25.399999999999999
144
1.0
145
0.0
146
1.0
147
0.09
 71
     0
 72
     0
 73
     1
 74
     1
 75
     0
 76
     0
 77
     0
 78
     4
170
     0
171
     2
172
     0
173
     0
174
     0
175
     0
176
   256
177
   256
178
   256
  0
ENDTAB
  0
ENDSEC
  0
SECTION
  2
BLOCKS
  0
BLOCK
  8
0
  2
$MODEL_SPACE
 70
     0
 10
0.0
 20
0.0
 30
0.0
  3
$MODEL_SPACE
  1

  0
ENDBLK
  5
21
  8
0
  0
BLOCK
 67
     1
  8
0
  2
$PAPER_SPACE
 70
     0
 10
0.0
 20
0.0
 30
0.0
  3
$PAPER_SPACE
  1

  0
ENDBLK
  5
1D
 67
     1
  8
0
  0
ENDSEC
  0
SECTION
  2
ENTITIES
  0
LINE
  5
75
  8
2-7
 10
-0.7252979035981556
 20
15.80703014863227
 30
0.0
 11
6.1925304243887149
 21
15.80703014863227
 31
0.0
  0
LINE
  5
79
  8
CENTERLINE
 10
-0.2191397396047182
 20
13.543250548632271
 30
0.0
 11
5.6863722603952809
 21
13.543250548632271
 31
0.0
  0
LINE
  5
D3
  8
2-7
 10
2.735584764395282
 20
2.4796671503832748
 30
0.0
 11
6.6686557563952809
 21
2.4796671503832761
 31
0.0
  0
LINE
  5
225
  8
ADAPTER
 10
-0.1374023425565852
 20
7.400927150383275
 30
0.0
 11
5.6046348633471483
 21
7.4009271503832759
 31
0.0
  0
LINE
  5
3A2
  8
CENTERLINE
 10
0.3714114603952818
 20
13.543250548632271
 30
0.0
 11
5.0958210603952807
 21
13.543250548632271
 31
0.0
  0
CIRCLE
  5
3AE
  8
2-7
  6
HIDDEN
 10
-0.4947302996047183
 20
13.543250548632271
 30
0.0
 40
0.7066929360000001
  0
POLYLINE
  5
3B2
  8
2-7
  6
HIDDEN
 66
     1
 10
0.0
 20
0.0
 30
0.0
 70
     1
  0
VERTEX
  5
A95
  8
2-7
  6
HIDDEN
 10
4.9180583605670511
 20
13.91726630941967
 30
0.0
  0
VERTEX
  5
A96
  8
2-7
  6
HIDDEN
 10
5.1339964607388211
 20
13.543250548632271
 30
0.0
  0
VERTEX
  5
A97
  8
2-7
  6
HIDDEN
 10
4.9180583605670511
 20
13.16923478784487
 30
0.0
  0
VERTEX
  5
A98
  8
2-7
  6
HIDDEN
 10
4.486182160223513
 20
13.16923478784487
 30
0.0
  0
VERTEX
  5
A99
  8
2-7
  6
HIDDEN
 10
4.2702440600517431
 20
13.543250548632271
 30
0.0
  0
VERTEX
  5
A9A
  8
2-7
  6
HIDDEN
 10
4.486182160223513
 20
13.91726630941967
 30
0.0
  0
SEQEND
  5
A9B
  8
2-7
  6
HIDDEN
  0
CIRCLE
  5
3B3
  8
2-7
  6
HIDDEN
 10
4.7021202603952821
 20
13.543250548632271
 30
0.0
 40
0.3473003493025872
  0
LINE
  5
3B6
  8
2-7
 10
-1.400242139604718
 20
3.6607695503832751
 30
0.0
 11
-1.400242139604718
 21
7.4009271503832759
 31
0.0
  0
LINE
  5
3B7
  8
2-7
  6
HIDDEN
 10
-0.7252979035981513
 20
3.6607695503832751
 30
0.0
 11
-0.7252979035981511
 21
7.4009271503832759
 31
0.0
  0
LINE
  5
3BA
  8
2-7
 10
4.2702440600517431
 20
2.0816075192595398
 30
0.0
 11
5.1339964607388211
 21
2.0816075192595411
 31
0.0
  0
LINE
  5
3BB
  8
2-7
 10
5.144682625332746
 20
2.460966362343906
 30
0.0
 11
4.2595578954578182
 21
2.460966362343906
 31
0.0
  0
ARC
  5
3BC
  8
2-7
 10
4.7021202603952821
 20
2.109436072889554
 30
0.0
 40
0.3484134914477874
 50
184.5812200852769
 51
355.41877991472307
  0
LINE
  5
3BD
  8
2-7
 10
5.1339964607388211
 20
2.0816075192595411
 30
0.0
 11
5.1339964607388211
 21
2.460966362343906
 31
0.0
  0
LINE
  5
3BE
  8
2-7
 10
5.144682625332746
 20
2.460966362343906
 30
0.0
 11
5.144682625332746
 21
2.4796671503832761
 31
0.0
  0
LINE
  5
3BF
  8
2-7
 10
4.9180583605670511
 20
2.0816075192595411
 30
0.0
 11
4.9180583605670511
 21
2.460966362343906
 31
0.0
  0
LINE
  5
3C0
  8
2-7
 10
4.486182160223513
 20
2.0816075192595411
 30
0.0
 11
4.486182160223513
 21
2.460966362343906
 31
0.0
  0
LINE
  5
3C1
  8
2-7
 10
4.2702440600517431
 20
2.0816075192595398
 30
0.0
 11
4.2702440600517431
 21
2.460966362343906
 31
0.0
  0
LINE
  5
3C2
  8
2-7
 10
4.2595578954578182
 20
2.460966362343906
 30
0.0
 11
4.2595578954578182
 21
2.4796671503832761
 31
0.0
  0
LINE
  5
3C8
  8
2-7
 10
-1.400242139604718
 20
7.4009271503832759
 30
0.0
 11
6.8674746603952821
 21
7.400927150383275
 31
0.0
  0
LINE
  5
406
  8
2-7
 10
14.035956080622791
 20
7.4009271503832741
 30
0.0
 11
9.5083968806227883
 21
7.4009271503832741
 31
0.0
  0
LINE
  5
437
  8
ADAPTER
 10
13.232806495362951
 20
10.141084806068349
 30
0.0
 11
13.232806495362951
 21
7.8009271759833121
 31
0.0
  0
LINE
  5
438
  8
ADAPTER
 10
10.311546465882619
 20
10.141084806068349
 30
0.0
 11
10.311546465882619
 21
7.8009271759833121
 31
0.0
  0
LINE
  5
43D
  8
ADAPTER
 10
14.02808206462279
 20
7.4009271503832759
 30
0.0
 11
9.5162708966227925
 21
7.400927150383275
 31
0.0
  0
LINE
  5
43E
  8
ADAPTER
 10
14.02808206462279
 20
7.8009271759833103
 30
0.0
 11
9.5162708966227907
 21
7.8009271759833121
 31
0.0
  0
LINE
  5
447
  8
ADAPTER
 10
13.232806495362951
 20
10.141084806068349
 30
0.0
 11
10.311546465882619
 21
10.141084806068349
 31
0.0
  0
LINE
  5
51F
  8
ADAPTER
 10
0.9577677830264155
 20
15.79915613263227
 30
0.0
 11
4.5094647377641461
 21
15.79915613263227
 31
0.0
  0
LINE
  5
564
  8
2-7
  6
HIDDEN
 10
2.1824351403952811
 20
7.8733681103832751
 30
0.0
 11
2.5367658603952821
 21
7.8733681103832751
 31
0.0
  0
LINE
  5
566
  8
2-7
  6
HIDDEN
 10
3.2847973803952821
 20
7.8733681103832751
 30
0.0
 11
3.2847973803952821
 21
7.4009271503832768
 31
0.0
  0
LINE
  5
567
  8
2-7
  6
HIDDEN
 10
2.1824351403952811
 20
7.8733681103832751
 30
0.0
 11
2.1824351403952811
 21
7.4009271503832759
 31
0.0
  0
LINE
  5
569
  8
2-7
  6
HIDDEN
 10
2.930466660395282
 20
7.8733681103832751
 30
0.0
 11
2.930466660395282
 21
7.4796673103832747
 31
0.0
  0
LINE
  5
56A
  8
2-7
  6
HIDDEN
 10
2.930466660395282
 20
7.4796673103832747
 30
0.0
 11
2.5367658603952821
 21
7.4796673103832747
 31
0.0
  0
LINE
  5
56B
  8
2-7
  6
HIDDEN
 10
2.5367658603952821
 20
7.4796673103832747
 30
0.0
 11
2.5367658603952821
 21
7.8733681103832751
 31
0.0
  0
LINE
  5
56C
  8
2-7
  6
HIDDEN
 10
2.930466660395282
 20
7.8733681103832751
 30
0.0
 11
3.2847973803952821
 21
7.8733681103832751
 31
0.0
  0
LINE
  5
6E3
  8
2-7
 10
-0.7252979035981511
 20
11.27947094863227
 30
0.0
 11
6.192530424388714
 21
11.27947094863227
 31
0.0
  0
ARC
  5
6E5
  8
2-7
 10
2.7336162603952809
 20
13.543250548632271
 30
0.0
 40
4.1338584000000003
 50
146.7961774700297
 51
213.20382252997021
  0
ARC
  5
6E6
  8
2-7
 10
2.7336162603952809
 20
13.543250548632271
 30
0.0
 40
4.1338584000000003
 50
326.79617747002959
 51
33.203822529970289
  0
CIRCLE
  5
6E7
  8
2-7
  6
HIDDEN
 10
2.0249548203952799
 20
13.543250548632271
 30
0.0
 40
0.7066929360000001
  0
CIRCLE
  5
6E8
  8
2-7
  6
HIDDEN
 10
3.442277700395282
 20
13.543250548632271
 30
0.0
 40
0.7066929360000001
  0
CIRCLE
  5
6EB
  8
2-7
  6
HIDDEN
 10
5.9619628203952821
 20
13.543250548632271
 30
0.0
 40
0.7066929360000001
  0
CIRCLE
  5
6EC
  8
2-7
  6
HIDDEN
 10
0.7651122603952811
 20
13.543250548632271
 30
0.0
 40
1.966535495999999
  0
CIRCLE
  5
6ED
  8
2-7
  6
HIDDEN
 10
4.7021202603952821
 20
13.543250548632271
 30
0.0
 40
1.966535495999999
  0
LINE
  5
6EE
  8
2-7
  6
HIDDEN
 10
6.192530424388714
 20
3.6607695503832751
 30
0.0
 11
6.192530424388714
 21
7.4009271503832759
 31
0.0
  0
LINE
  5
6EF
  8
2-7
 10
6.8674746603952812
 20
3.6607695503832751
 30
0.0
 11
6.8674746603952821
 21
7.4009271503832759
 31
0.0
  0
LINE
  5
6F1
  8
2-7
 10
-1.400242139604718
 20
3.6607695503832751
 30
0.0
 11
6.8674746603952812
 21
3.6607695503832751
 31
0.0
  0
LINE
  5
6F2
  8
2-7
 10
6.66865575639528
 20
3.660769550383276
 30
0.0
 11
6.6686557563952809
 21
2.4796671503832761
 31
0.0
  0
LINE
  5
6F4
  8
2-7
 10
2.7355847643952829
 20
3.6607695503832751
 30
0.0
 11
2.735584764395282
 21
2.4796671503832748
 31
0.0
  0
LINE
  5
6F5
  8
2-7
 10
2.735584764395282
 20
0.4717930703832753
 30
0.0
 11
4.1489706363952816
 21
0.4717930703832753
 31
0.0
  0
LINE
  5
6F7
  8
2-7
 10
4.1489706363952816
 20
2.4796671503832748
 30
0.0
 11
4.1489706363952816
 21
0.4717930703832753
 31
0.0
  0
LINE
  5
6F9
  8
2-7
 10
2.735584764395282
 20
2.4796671503832748
 30
0.0
 11
2.735584764395282
 21
0.4717930703832753
 31
0.0
  0
LINE
  5
6FA
  8
2-7
 10
2.7316477563952808
 20
2.4796671503832748
 30
0.0
 11
-1.201423235604717
 21
2.4796671503832761
 31
0.0
  0
LINE
  5
6FB
  8
2-7
 10
2.7316477563952799
 20
3.6607695503832751
 30
0.0
 11
2.7316477563952808
 21
2.4796671503832748
 31
0.0
  0
LINE
  5
6FC
  8
2-7
 10
2.7316477563952808
 20
2.4796671503832748
 30
0.0
 11
2.7316477563952808
 21
0.4717930703832753
 31
0.0
  0
LINE
  5
6FD
  8
2-7
 10
1.3182618843952809
 20
2.4796671503832748
 30
0.0
 11
1.3182618843952809
 21
0.4717930703832753
 31
0.0
  0
LINE
  5
6FE
  8
2-7
 10
2.7316477563952808
 20
0.4717930703832753
 30
0.0
 11
1.3182618843952809
 21
0.4717930703832753
 31
0.0
  0
LINE
  5
6FF
  8
2-7
 10
-1.2014232356047161
 20
3.660769550383276
 30
0.0
 11
-1.201423235604717
 21
2.4796671503832761
 31
0.0
  0
CIRCLE
  5
701
  8
2-7
  6
HIDDEN
 10
0.7651122603952807
 20
13.543250548632271
 30
0.0
 40
0.3473003493025872
  0
POLYLINE
  5
702
  8
2-7
  6
HIDDEN
 66
     1
 10
0.0
 20
0.0
 30
0.0
 70
     1
  0
VERTEX
  5
A9C
  8
2-7
  6
HIDDEN
 10
0.5491741602235113
 20
13.91726630941967
 30
0.0
  0
VERTEX
  5
A9D
  8
2-7
  6
HIDDEN
 10
0.333236060051742
 20
13.543250548632271
 30
0.0
  0
VERTEX
  5
A9E
  8
2-7
  6
HIDDEN
 10
0.5491741602235118
 20
13.16923478784487
 30
0.0
  0
VERTEX
  5
A9F
  8
2-7
  6
HIDDEN
 10
0.9810503605670495
 20
13.16923478784487
 30
0.0
  0
VERTEX
  5
AA0
  8
2-7
  6
HIDDEN
 10
1.1969884607388179
 20
13.543250548632271
 30
0.0
  0
VERTEX
  5
AA1
  8
2-7
  6
HIDDEN
 10
0.9810503605670501
 20
13.91726630941967
 30
0.0
  0
SEQEND
  5
AA2
  8
2-7
  6
HIDDEN
  0
LINE
  5
703
  8
2-7
 10
0.3225498954578177
 20
2.460966362343906
 30
0.0
 11
1.2076746253327451
 21
2.460966362343906
 31
0.0
  0
LINE
  5
704
  8
2-7
 10
1.1969884607388199
 20
2.0816075192595398
 30
0.0
 11
0.3332360600517431
 21
2.0816075192595411
 31
0.0
  0
ARC
  5
705
  8
2-7
 10
0.7651122603952818
 20
2.109436072889554
 30
0.0
 40
0.3484134914477874
 50
184.5812200852769
 51
355.41877991472302
  0
LINE
  5
706
  8
2-7
 10
1.1969884607388199
 20
2.0816075192595398
 30
0.0
 11
1.1969884607388199
 21
2.460966362343906
 31
0.0
  0
LINE
  5
707
  8
2-7
 10
1.2076746253327451
 20
2.460966362343906
 30
0.0
 11
1.2076746253327451
 21
2.4796671503832761
 31
0.0
  0
LINE
  5
708
  8
2-7
 10
0.9810503605670511
 20
2.0816075192595411
 30
0.0
 11
0.9810503605670511
 21
2.460966362343906
 31
0.0
  0
LINE
  5
709
  8
2-7
 10
0.5491741602235125
 20
2.0816075192595411
 30
0.0
 11
0.5491741602235125
 21
2.460966362343906
 31
0.0
  0
LINE
  5
70A
  8
2-7
 10
0.3332360600517431
 20
2.0816075192595411
 30
0.0
 11
0.3332360600517431
 21
2.460966362343906
 31
0.0
  0
LINE
  5
70B
  8
2-7
 10
0.3225498954578177
 20
2.460966362343906
 30
0.0
 11
0.3225498954578177
 21
2.4796671503832761
 31
0.0
  0
ARC
  5
70F
  8
ADAPTER
 10
2.7336162603952809
 20
13.543250548632271
 30
0.0
 40
2.8710186029518661
 50
128.20981495485211
 51
231.79018504514781
  0
LINE
  5
710
  8
ADAPTER
 10
0.9577677830264179
 20
11.28734496463227
 30
0.0
 11
4.5094647377641461
 21
11.28734496463227
 31
0.0
  0
ARC
  5
711
  8
ADAPTER
 10
2.7336162603952809
 20
13.543250548632271
 30
0.0
 40
2.8710186029518661
 50
308.20981495485211
 51
51.790185045147872
  0
LINE
  5
712
  8
ADAPTER
 10
5.6046348633471483
 20
7.8009271631832764
 30
0.0
 11
5.6046348633471483
 21
7.4009271503832759
 31
0.0
  0
LINE
  5
713
  8
ADAPTER
 10
-0.1374023425565852
 20
7.8009271631832764
 30
0.0
 11
-0.1374023425565852
 21
7.400927150383275
 31
0.0
  0
LINE
  5
7BD
  8
ADAPTER
 10
9.5162708966227907
 20
7.8009271759833121
 30
0.0
 11
9.5162708966227925
 21
7.400927150383275
 31
0.0
  0
LINE
  5
7BE
  8
ADAPTER
 10
14.02808206462279
 20
7.8009271759833103
 30
0.0
 11
14.02808206462279
 21
7.4009271503832759
 31
0.0
  0
LINE
  5
7BF
  8
2-7
 10
9.5083968806227883
 20
7.4009271503832741
 30
0.0
 11
9.5083968806227883
 21
3.660769550383276
 31
0.0
  0
LINE
  5
7C0
  8
2-7
 10
14.035956080622791
 20
7.4009271503832741
 30
0.0
 11
14.035956080622791
 21
3.6607695503832751
 31
0.0
  0
LINE
  5
7C1
  8
2-7
 10
9.5083968806227883
 20
3.660769550383276
 30
0.0
 11
14.035956080622791
 21
3.6607695503832751
 31
0.0
  0
LINE
  5
7C2
  8
2-7
 10
13.738711976622779
 20
3.660769550383276
 30
0.0
 11
13.73871197662279
 21
2.4796671503832761
 31
0.0
  0
LINE
  5
7C3
  8
2-7
 10
9.8056409846227908
 20
2.4796671503832748
 30
0.0
 11
13.73871197662279
 21
2.4796671503832761
 31
0.0
  0
ARC
  5
7C4
  8
2-7
 10
11.772176480622781
 20
2.109436072889554
 30
0.0
 40
0.3484134914477874
 50
184.5812200852769
 51
355.41877991472307
  0
LINE
  5
7C5
  8
2-7
 10
12.21473884556025
 20
2.460966362343906
 30
0.0
 11
11.32961411568532
 21
2.460966362343906
 31
0.0
  0
LINE
  5
7C6
  8
2-7
 10
11.34030028027925
 20
2.0816075192595398
 30
0.0
 11
12.204052680966321
 21
2.0816075192595411
 31
0.0
  0
LINE
  5
7C7
  8
2-7
 10
11.34030028027925
 20
2.0816075192595398
 30
0.0
 11
11.34030028027925
 21
2.460966362343906
 31
0.0
  0
LINE
  5
7C8
  8
2-7
 10
11.55623838045102
 20
2.0816075192595411
 30
0.0
 11
11.55623838045102
 21
2.460966362343906
 31
0.0
  0
LINE
  5
7C9
  8
2-7
 10
11.32961411568532
 20
2.460966362343906
 30
0.0
 11
11.32961411568532
 21
2.4796671503832761
 31
0.0
  0
LINE
  5
7CA
  8
2-7
 10
11.98811458079456
 20
2.0816075192595411
 30
0.0
 11
11.98811458079456
 21
2.460966362343906
 31
0.0
  0
LINE
  5
7CB
  8
2-7
 10
12.204052680966321
 20
2.0816075192595411
 30
0.0
 11
12.204052680966321
 21
2.460966362343906
 31
0.0
  0
LINE
  5
7CC
  8
2-7
 10
12.21473884556025
 20
2.460966362343906
 30
0.0
 11
12.21473884556025
 21
2.4796671503832761
 31
0.0
  0
LINE
  5
7CD
  8
2-7
 10
9.8056409846227925
 20
3.660769550383276
 30
0.0
 11
9.8056409846227908
 21
2.4796671503832761
 31
0.0
  0
LINE
  5
7CE
  8
2-7
 10
12.478869416622789
 20
2.4796671503832748
 30
0.0
 11
12.478869416622789
 21
0.4717930703832753
 31
0.0
  0
LINE
  5
7CF
  8
2-7
 10
11.065483544622779
 20
0.4717930703832753
 30
0.0
 11
12.478869416622789
 21
0.4717930703832753
 31
0.0
  0
LINE
  5
7D0
  8
2-7
 10
11.065483544622779
 20
2.4796671503832748
 30
0.0
 11
11.065483544622779
 21
0.4717930703832753
 31
0.0
  0
LINE
  5
828
  8
DRIVE_TANG
  6
HIDDEN
 10
2.5367658603952821
 20
7.4796673103832729
 30
0.0
 11
2.930466660395282
 21
7.4796673103832729
 31
0.0
  0
LINE
  5
829
  8
DRIVE_TANG
  6
HIDDEN
 10
2.1910965579952801
 20
9.0647067311832732
 30
0.0
 11
3.27613596279528
 21
9.0647067311832732
 31
0.0
  0
LINE
  5
82B
  8
DRIVE_TANG
  6
HIDDEN
 10
2.5367658603952821
 20
7.8965964575832741
 30
0.0
 11
2.5367658603952821
 21
7.4796673103832729
 31
0.0
  0
LINE
  5
82E
  8
DRIVE_TANG
  6
HIDDEN
 10
2.1910965579952801
 20
7.8965964575832741
 30
0.0
 11
2.5367658603952821
 21
7.8965964575832741
 31
0.0
  0
LINE
  5
830
  8
DRIVE_TANG
  6
HIDDEN
 10
2.1910965579952801
 20
9.0647067311832732
 30
0.0
 11
2.1910965579952801
 21
7.8965964575832741
 31
0.0
  0
LINE
  5
831
  8
DRIVE_TANG
  6
HIDDEN
 10
2.930466660395282
 20
7.4796673103832729
 30
0.0
 11
2.930466660395282
 21
7.8965964575832723
 31
0.0
  0
LINE
  5
834
  8
DRIVE_TANG
  6
HIDDEN
 10
2.930466660395282
 20
7.8965964575832723
 30
0.0
 11
3.2761359627952809
 21
7.8965964575832741
 31
0.0
  0
LINE
  5
836
  8
DRIVE_TANG
  6
HIDDEN
 10
3.27613596279528
 20
9.0647067311832732
 30
0.0
 11
3.2761359627952809
 21
7.8965964575832741
 31
0.0
  0
TEXT
  5
900
  8
0
 10
-0.9654336087560579
 20
10.56209759192482
 30
0.0
 40
0.125
  1
THE ADAPTER SHOWN IN THIS DRAWING IS ONLY TO ILLUSTRATE A TYPICAL ADAPTER
  7
ARIAL
  0
CIRCLE
  5
9C0
  8
ADAPTER
 10
2.7336162603952809
 20
13.543250548632271
 30
0.0
 40
1.1154999999999999
  0
CIRCLE
  5
9C1
  8
ADAPTER
 10
2.7336162603952809
 20
13.543250548632271
 30
0.0
 40
1.006219572934834
  0
CIRCLE
  5
9C3
  8
ADAPTER
 10
2.7336162603952809
 20
13.543250548632271
 30
0.0
 40
0.625
  0
LINE
  5
9C7
  8
ADAPTER
 10
4.6328289195952852
 20
14.340494668632269
 30
0.0
 11
3.2900399623952432
 21
14.89374400188273
 31
0.0
  0
ARC
  5
9C9
  8
ADAPTER
 10
4.1358071684033257
 20
12.48741360773764
 30
0.0
 40
0.0824692778919425
 50
214.2219499523211
 51
325.77805004767828
  0
LINE
  5
9CA
  8
ADAPTER
 10
4.6328289195952852
 20
12.746006428632271
 30
0.0
 11
4.0184010243043611
 21
12.746006428632271
 31
0.0
  0
LINE
  5
9CB
  8
ADAPTER
 10
4.0479311540913381
 20
12.68695130863227
 30
0.0
 11
4.632829028587226
 21
12.68695130863227
 31
0.0
  0
LINE
  5
9CC
  8
ADAPTER
 10
3.8445006373915769
 20
12.42120326863227
 30
0.0
 11
3.290039962395249
 21
12.19275709538182
 31
0.0
  0
LINE
  5
9CD
  8
ADAPTER
 10
4.0184010243043611
 20
12.49285285481305
 30
0.0
 11
3.8445006373915769
 21
12.42120326863227
 31
0.0
  0
LINE
  5
9CE
  8
ADAPTER
 10
4.0676161940913369
 20
12.68695130863227
 30
0.0
 11
4.0676161940913369
 21
12.44103287015834
 31
0.0
  0
LINE
  5
9CF
  8
ADAPTER
 10
4.0184010243043611
 20
12.746006428632271
 30
0.0
 11
4.0184010243043611
 21
12.49285285481305
 31
0.0
  0
LINE
  5
9D0
  8
ADAPTER
 10
4.0479311540913381
 20
12.68695130863227
 30
0.0
 11
4.0479311540913381
 21
12.746006428632271
 31
0.0
  0
LINE
  5
9D1
  8
ADAPTER
 10
4.6328289195952852
 20
14.340494668632269
 30
0.0
 11
4.6328289195952852
 21
12.746006428632271
 31
0.0
  0
ARC
  5
9D2
  8
ADAPTER
 10
4.5449530142752383
 20
12.48741360773764
 30
0.0
 40
0.0824692778919425
 50
214.22194995232169
 51
325.77805004767879
  0
LINE
  5
9D3
  8
ADAPTER
 10
4.1358071684033257
 20
12.4049443298457
 30
0.0
 11
4.5449530142752383
 21
12.4049443298457
 31
0.0
  0
ARC
  5
9D4
  8
ADAPTER
 10
4.340380091339286
 20
12.68068863094452
 30
0.0
 40
0.2757443010988207
 50
240.356905410038
 51
299.6430945899599
  0
LINE
  5
9D5
  8
ADAPTER
 10
4.2039981427153084
 20
12.68695130863227
 30
0.0
 11
4.2039981427153084
 21
12.441032870158329
 31
0.0
  0
LINE
  5
9D6
  8
ADAPTER
 10
4.4767620399632557
 20
12.68695130863227
 30
0.0
 11
4.4767620399632557
 21
12.441032870158329
 31
0.0
  0
LINE
  5
9D7
  8
ADAPTER
 10
4.6131439885872272
 20
12.68695130863227
 30
0.0
 11
4.6131439885872272
 21
12.44103287015834
 31
0.0
  0
LINE
  5
9D8
  8
ADAPTER
 10
4.632829028587226
 20
12.68695130863227
 30
0.0
 11
4.632829028587226
 21
12.746006428632271
 31
0.0
  0
LINE
  5
9DA
  8
ADAPTER
  6
HIDDEN
 10
3.849116260395284
 20
8.2660847183832722
 30
0.0
 11
1.618116260395281
 21
8.2660847183832722
 31
0.0
  0
LINE
  5
9DB
  8
ADAPTER
  6
HIDDEN
 10
1.5131438203952801
 20
7.2828169103832758
 30
0.0
 11
3.95408870039528
 21
7.2828169103832758
 31
0.0
  0
LINE
  5
9DD
  8
ADAPTER
 10
1.2729862923952799
 20
10.14108471838327
 30
0.0
 11
4.1942462283952793
 21
10.14108471838327
 31
0.0
  0
LINE
  5
9DF
  8
ADAPTER
  6
HIDDEN
 10
1.743116260395281
 20
7.4805940254843337
 30
0.0
 11
3.724116260395284
 21
7.4805940254843337
 31
0.0
  0
LINE
  5
9E0
  8
2-7
  6
HIDDEN
 10
1.5131438203952801
 20
7.2828169103832758
 30
0.0
 11
3.95408870039528
 21
7.2828169103832758
 31
0.0
  0
LINE
  5
9E1
  8
ADAPTER
  6
HIDDEN
 10
1.618116260395281
 20
10.14108471838327
 30
0.0
 11
1.618116260395281
 21
8.2660847183832722
 31
0.0
  0
LINE
  5
9E2
  8
ADAPTER
 10
1.2729862923952799
 20
10.14108471838327
 30
0.0
 11
1.2729862923952799
 21
7.8009271631832764
 31
0.0
  0
LINE
  5
9E4
  8
ADAPTER
  6
HIDDEN
 10
1.743116260395281
 20
8.2660847183832722
 30
0.0
 11
1.743116260395281
 21
7.4805940254843337
 31
0.0
  0
LINE
  5
9E5
  8
ADAPTER
  6
HIDDEN
 10
1.5131438203952801
 20
7.4009271503832759
 30
0.0
 11
1.5131438203952801
 21
7.2828169103832758
 31
0.0
  0
LINE
  5
9E6
  8
2-7
  6
HIDDEN
 10
1.5131438203952801
 20
7.4009271503832759
 30
0.0
 11
1.5131438203952801
 21
7.2828169103832758
 31
0.0
  0
LINE
  5
9E7
  8
ADAPTER
  6
HIDDEN
 10
2.1086162603952809
 20
7.2828169103832758
 30
0.0
 11
2.1086162603952809
 21
7.4805940254843337
 31
0.0
  0
LINE
  5
9E8
  8
ADAPTER
 10
4.1942462283952819
 20
8.7139193183832777
 30
0.0
 11
4.1942462283952819
 21
7.8009271631832764
 31
0.0
  0
LINE
  5
9E9
  8
ADAPTER
  6
HIDDEN
 10
3.849116260395284
 20
10.14108471838327
 30
0.0
 11
3.849116260395284
 21
8.2660847183832722
 31
0.0
  0
LINE
  5
9EA
  8
ADAPTER
  6
HIDDEN
 10
3.724116260395284
 20
8.2660847183832722
 30
0.0
 11
3.724116260395284
 21
7.4805940254843337
 31
0.0
  0
LINE
  5
9EB
  8
ADAPTER
  6
HIDDEN
 10
3.3586162603952801
 20
7.2828169103832758
 30
0.0
 11
3.3586162603952801
 21
7.4805940254843337
 31
0.0
  0
LINE
  5
9EC
  8
ADAPTER
  6
HIDDEN
 10
3.95408870039528
 20
7.2828169103832758
 30
0.0
 11
3.95408870039528
 21
7.4009271503832759
 31
0.0
  0
LINE
  5
9ED
  8
2-7
  6
HIDDEN
 10
3.9540887003952792
 20
7.2828169103832758
 30
0.0
 11
3.9540887003952792
 21
7.4009271503832759
 31
0.0
  0
LINE
  5
9EF
  8
ADAPTER
 10
4.6328289195952834
 20
8.7139193183832777
 30
0.0
 11
3.6485769195952811
 21
8.7139193183832777
 31
0.0
  0
LINE
  5
9F0
  8
ADAPTER
 10
3.6485769195952811
 20
10.04265951838328
 30
0.0
 11
4.6328289195952834
 21
10.042659518383269
 31
0.0
  0
POLYLINE
  5
9F1
  8
ADAPTER
 66
     1
 10
0.0
 20
0.0
 30
0.0
 70
     1
  0
VERTEX
  5
AA3
  8
ADAPTER
 10
4.2039981427153101
 20
9.6145098826352449
 30
0.0
  0
VERTEX
  5
AA4
  8
ADAPTER
 10
4.067616194091336
 20
9.378289418383277
 30
0.0
  0
VERTEX
  5
AA5
  8
ADAPTER
 10
4.2039981427153101
 20
9.1420689541313092
 30
0.0
  0
VERTEX
  5
AA6
  8
ADAPTER
 10
4.4767620399632539
 20
9.1420689541313092
 30
0.0
  0
VERTEX
  5
AA7
  8
ADAPTER
 10
4.6131439885872254
 20
9.378289418383277
 30
0.0
  0
VERTEX
  5
AA8
  8
ADAPTER
 10
4.4767620399632539
 20
9.6145098826352449
 30
0.0
  0
SEQEND
  5
AA9
  8
ADAPTER
  0
LINE
  5
9F2
  8
ADAPTER
  6
HIDDEN
 10
3.6485769195952811
 20
10.042659518383269
 30
0.0
 11
3.6485769195952811
 21
8.7139193183832777
 31
0.0
  0
LINE
  5
9F3
  8
ADAPTER
 10
4.6328289195952834
 20
10.042659518383269
 30
0.0
 11
4.6328289195952834
 21
8.7139193183832777
 31
0.0
  0
CIRCLE
  5
9F4
  8
ADAPTER
 10
4.3403800913392798
 20
9.378289418383277
 30
0.0
 40
0.219347573948256
  0
LINE
  5
9F5
  8
ADAPTER
 10
4.1942462283952793
 20
10.14108471838327
 30
0.0
 11
4.1942462283952793
 21
10.042659518383269
 31
0.0
  0
LINE
  5
9F7
  8
ADAPTER
 10
-0.1374023425565856
 20
7.8009271631832746
 30
0.0
 11
5.6046348633471483
 21
7.8009271631832764
 31
0.0
  0
CIRCLE
  5
9F8
  8
ADAPTER
 10
2.7336162603952809
 20
13.543250548632271
 30
0.0
 40
1.460629967999999
  0
CIRCLE
  5
9FE
  8
2-7
  6
HIDDEN
 10
2.7336162603952801
 20
13.543250548632271
 30
0.0
 40
1.220472439999998
  0
LINE
  5
9FF
  8
2-7
  6
HIDDEN
 10
10.551704040622781
 20
7.2828169103832741
 30
0.0
 11
12.992648920622781
 21
7.2828169103832741
 31
0.0
  0
LINE
  5
A00
  8
2-7
  6
HIDDEN
 10
10.551704040622781
 20
7.4009271503832741
 30
0.0
 11
10.551704040622781
 21
7.2828169103832741
 31
0.0
  0
LINE
  5
A01
  8
2-7
  6
HIDDEN
 10
12.992648920622781
 20
7.2828169103832741
 30
0.0
 11
12.992648920622781
 21
7.4009271503832741
 31
0.0
  0
LINE
  5
A02
  8
ADAPTER
  6
HIDDEN
 10
10.78167648062279
 20
8.2660847183832722
 30
0.0
 11
10.78167648062279
 21
7.4805940254843337
 31
0.0
  0
LINE
  5
A03
  8
ADAPTER
  6
HIDDEN
 10
11.14717648062279
 20
7.2828169103832758
 30
0.0
 11
11.14717648062279
 21
7.4805940254843337
 31
0.0
  0
LINE
  5
A04
  8
ADAPTER
  6
HIDDEN
 10
10.55170404062279
 20
7.4009271503832759
 30
0.0
 11
10.55170404062279
 21
7.2828169103832758
 31
0.0
  0
LINE
  5
A05
  8
ADAPTER
  6
HIDDEN
 10
10.65667648062279
 20
10.14108471838327
 30
0.0
 11
10.65667648062279
 21
8.2660847183832722
 31
0.0
  0
LINE
  5
A06
  8
ADAPTER
  6
HIDDEN
 10
12.76267648062279
 20
8.2660847183832722
 30
0.0
 11
12.76267648062279
 21
7.4805940254843337
 31
0.0
  0
LINE
  5
A07
  8
ADAPTER
  6
HIDDEN
 10
12.39717648062279
 20
7.2828169103832758
 30
0.0
 11
12.39717648062279
 21
7.4805940254843337
 31
0.0
  0
LINE
  5
A08
  8
ADAPTER
  6
HIDDEN
 10
12.99264892062279
 20
7.2828169103832758
 30
0.0
 11
12.99264892062279
 21
7.4009271503832759
 31
0.0
  0
LINE
  5
A09
  8
ADAPTER
  6
HIDDEN
 10
12.88767648062279
 20
8.2660847183832722
 30
0.0
 11
10.65667648062279
 21
8.2660847183832722
 31
0.0
  0
LINE
  5
A0A
  8
ADAPTER
  6
HIDDEN
 10
12.88767648062279
 20
10.14108471838327
 30
0.0
 11
12.88767648062279
 21
8.2660847183832722
 31
0.0
  0
LINE
  5
A0B
  8
ADAPTER
  6
HIDDEN
 10
10.55170404062279
 20
7.2828169103832758
 30
0.0
 11
12.99264892062279
 21
7.2828169103832758
 31
0.0
  0
LINE
  5
A0C
  8
ADAPTER
  6
HIDDEN
 10
10.78167648062279
 20
7.4805940254843337
 30
0.0
 11
12.76267648062279
 21
7.4805940254843337
 31
0.0
  0
ENDSEC
  0
EOF
